Chord The Eden Project Circles

146 views

Chord The Eden Project Circles dengan chord diagram, versi lebih mudah.

Tuning: Standard tuning

Chords : G  D  A  E

INTRO:
Verse 1:

"If I told you......I'd live them all the same"
This riff is repeated throughout the beginning of the song.

e|----10------10------10-----------------------------------------------------|
B|-----------------------------10-----10-----10-----10-----10----------------|
G|---------------------------------------------------------------------------|
D|--9-------9-------9--------------------------------------------------------|
A|-----------------------------9------9------9------9------9-----------------|
E|---------------------------------------------------------------------------|

e|---------------------------------------------------------------------------|
B|----------14-----14------14------8-----8-----8--8/7------------------------|
G|---------------------------------------------------------------------------|
D|---------------------------------------------------------------------------|
A|----9\12-----12------12------7------7-----7--------------------------------|
E|---------------------------------------------------------------------------|

BRIDGE 1:

These chords are then played when he starts this verse
"Because I'm scared of all that I don't know"
That's where you play this riff by plucking the e, B and D strings simultaneously and continuously

e|----3---3---3-----2---2---2---2---2---2---2---2-----0---0---0---0---0------|
B|----3---3---3-----3---3---3---3---3---3---3---3-----2---2---2---2---2------|
G|---------------------------------------------------------------------------|
D|----5---5---5-----4---4---4---4---4---4---4---4-----2---2---2---2---2------|
A|---------------------------------------------------------------------------|
E|---------------------------------------------------------------------------|

"Cause I want it all but all of it aint gold"


e|----3---3---3-----2---2---2---2---2---2---2---2-----0---0---0---0---0------|
B|----3---3---3-----3---3---3---3---3---3---3---3-----0---0---0---0---0------|
G|---------------------------------------------------------------------------|
D|----5---5---5-----4---4---4---4---4---4---4---4-----2---2---2---2---2------|
A|---------------------------------------------------------------------------|
E|---------------------------------------------------------------------------|

These two riffs repeat when he sings "And im scared, but I know it's not for long
'Cause I'm learning what I shouldve long before."

-----------------------------------------------------------------------------------------------------

CHROUS:

And then the riff below is played when he starts singing "that all we are...Is falling 
through the spaces in between
Endless flight,"

For the bottom chords (G, D, A, E), pluck the e, B and D strings once and let it fade


  that all we are          is a light..         darkness
e|-----3-----------------------2-------------------0-------------------------|
B|-----3-----------------------3-------------------2-------------------------|
G|---------------------------------------------------------------------------|
D|-----5-----------------------4-------------------2-------------------------|
A|---------------------------------------------------------------------------|
E|---------------------------------------------------------------------------|
  and all we are            is time..      counting down
e|-----3-----------------------2-------------------0-------------------------|
B|-----3-----------------------3-------------------2-------------------------|
G|---------------------------------------------------------------------------|
D|-----5-----------------------4-------------------2-------------------------|
A|---------------------------------------------------------------------------|
E|---------------------------------------------------------------------------|
 and allll                 we are           is falling..       in between
e|-----3-----------------------2-------------------0----------------0--------|
B|-----3-----------------------3-------------------2----------------0--------|
G|---------------------------------------------------------------------------|
D|-----5-----------------------4-------------------2----------------2--------|
A|---------------------------------------------------------------------------|
E|---------------------------------------------------------------------------|
       Endless-         Fli-           -ght
e|--------3--------------2---------------0-----------------------------------|
B|--------3--------------3---------------2-----------------------------------|
G|---------------------------------------------------------------------------|
D|--------5--------------4---------------2-----------------------------------|
A|---------------------------------------------------------------------------|
E|---------------------------------------------------------------------------|

"A lifetime in repeat"

Free strum chords : G D A

VERSE 2: same as verse 1

the rest of the song can be played out in chords since it gets upbeat and can be played 
alongside drums or a
cahone or any kind of percussion

CHORUS again: same as chorus

When he sings the last part "Falling to our knees"

Either replay the intro which is what I do

e|----10------10------10-----------------------------------------------------|
B|-----------------------------10-----10-----10-----10-----10----------------|
G|---------------------------------------------------------------------------|
D|--9-------9-------9--------------------------------------------------------|
A|-----------------------------9------9------9------9------9-----------------|
E|---------------------------------------------------------------------------|

e|---------------------------------------------------------------------------|
B|----------14-----14------14------8-----8-----8--8/7------------------------|
G|---------------------------------------------------------------------------|
D|---------------------------------------------------------------------------|
A|----9\12-----12------12------7------7-----7--------------------------------|
E|---------------------------------------------------------------------------|

Or you can strum staccato with the the G D and A chords like in the Chorus


************************************

| /   slide up
| \   slide down
| h   hammer-on
| p   pull-off
| ~   vibrato
| +   harmonic
| x   Mute note
| b   Bend
| pb  Pre-bend
| br  Bend release
| pbr Pre-bend release
| brb Bend release bend

************************************

Itulah Chord The Eden Project Circles. Chord ini dipublikasian hanya untuk kepentingan belajar saja. Hak cipta tetap milik pencipta lagu.

Author: 
    author
    No related post!