Chord Superman Is Dead Runaway Stripper

480 views

Chord Superman Is Dead Runaway Stripper dengan chord diagram, versi lebih mudah.

Fig1
e|---------------|
B|--10-10-10-10--|
G|---------------|
D|---------------|
A|---------------|
E|---------------|

Fig2
e|-----------------------------|
B|--10-10-10-10-10-10-10-10-10-|
G|-----------------------------|
D|--7--7--7--7--7--7--7--7--7--|
A|-----------------------------|
E|-----------------------------|

Fig3
e|------------------------------------------------------------------|
B|---------------------------------------------------------------10-|
G|--/6--6-6---6h7-6------------6-6---6h7-6--------7--7-6------------|
D|----------7-------9-9-7h9-7------7-------9-9-7---------7-6--9-----|
A|------------------------------------------------------------------|
E|------------------------------------------------------------------|

=====================================================================

A5 D5 A5 D5 A5
A5                                    D5 A5
The night s still young and the booze is free
A5                   Fig1
My friend he makes a big party
D5          E5      A5
Soon we are getting there

A5 D5 A5

A5                      D5 A5
Down the hill in this mini van
A5                    Fig1
Tonight is gonna be a blast
D5     E5         A5
The action just can t wait

D5              E5                 A5
So I drink this bottle, and the stars they look so bright
D5                E5          A5
And the right direction, so we ll see another day
D5                E5
And we hope she ll be there, wearing just black underwear
D5             E5              A5
But end up sing this song, and this is for the boys

A5                D5       E5         A5
Runaway stripper, she will never come back
A5                D5        E5           A5
Runaway stripper, she ain t never comin  back
D5       A5     E5            A5
Is there anything wrong, I don t understand
D5     A5        E5            A5
I just hoped she found her way home
D5               A5    E5            A5
Maybe she just want it more, want a better deal
D5           E5                A5
Let s have a good time without her

Itulah Chord Superman Is Dead Runaway Stripper. Chord ini dipublikasian hanya untuk kepentingan belajar saja. Hak cipta tetap milik pencipta lagu.