Chord Superman Is Dead My Girlfriend Is Pregnant

181 views

Chord Superman Is Dead My Girlfriend Is Pregnant dengan chord diagram, versi lebih mudah.

Song        : My Girlfriend Is Pregnant
Artist      : Superman Is Dead
Tabbed by   : yoos
Email       : yoos_yoes@yahoo.com
Web site    : www.geocities.com/yoos_yoes


Fig1
e|----------------------|
B|----------------------|
G|----------7-----------|
D|-----8------10-8-10~--|
A|--10---10-------------|
E|----------------------|

Fig2
e|---------------------------------------------|
B|---------------------------------------------|
G|--------5h7-7--------5h7-7--8-7-5-------5-7--|
D|--5-5-8--------5-5-8--------------8-7-8------|
A|---------------------------------------------|
E|---------------------------------------------|

e|----------------------------------------------|
B|--------------------------------------------8-|
G|--------5h7-7--------5h7-7--8-7-5-------5-7---|
D|--5-5-8--------5-5-8--------------8-7-8-------|
A|----------------------------------------------|
E|----------------------------------------------|

Fig3
e|-----------------------------------------|
B|-----------------------------------------|
G|-----------------------------------------|
D|-----------------------------------------| 2x
A|---------------3------------6-5-3--------|
E|--\-3--3-3-5-6---6-5-3--3-3-------6-5-3--|

e|-------------------|
B|-------------------|
G|-------------------|
D|----------5-5------| 8x
A|------5-5-----5-5--|
E|--3-3--------------|

G5 D5 D#5 D5 C5 A#5 C5 D5 G5

e|-------------------|
B|-------------------|
G|-------------------|
D|-------------------|
A|----------7--------|
E|--3-3-5-6---6-5-3--|

G5 D5 D#5 D5 C5 A#5 C5 D5 G5

e|-----------------------------------|
B|-----------------------------------|
G|-----------------------------------|
D|----------5-5-3-3-------------3-3--|
A|------5-5---------6-6-5-5-6-6------|
E|--3-3------------------------------|

e|-----------------------------------|
B|-----------------------------------|
G|------------------------------3-3--|
D|----------5-5-3-3------------------|
A|------5-5---------6-6-5-5-6-6------|
E|--3-3------------------------------|

e|-----------------------------------|
B|-----------------------------------|
G|-----------------------------------|
D|----------5-5-3-3-------------3-3--|
A|------5-5---------6-6-5-5-6-6------|
E|--3-3------------------------------|

======================================================

G5

G5
My girldfriend is pregnant
D#5         F5
I can not believe what have done
G5
My girlfriend is pregnant
D#5                F5
Something s left inside
G5
It s happened

G5
My brain is stacking,
G5 D5 D#5 G5 D5 D#5 D5 G5
Got no place to hide
G5
She still arround me
F5 D#5  D5  D#5 D5 G5
Oh no I can t run
G5
Suicide infront of me
G5 D5 D#5 G5 D5 D#5 D5 G5
So what to do
G5
Remember she loves me
F5 D#5  D5
And it s make me kind

F5                G5   Fig1
Luck is not on my side
F5                        G5    Fig1
I found that I ve lost my brain
F5
Please help me
G5
Out this blinded mind
A#5       D5
To face reality

G5
Oh no, this is a story
D#5      F5 D#5
This is a story of human life
G5
Marriage, it just the last style
D#5      F5 D#5
It just the last style Of human game

F5               G5  Fig1
Why do I have to run
F5                  G5   Fig1
It just a part of a game
F5                   G5
Marriage can be more tasty
A#5          D5
And fantasy than suicide

Itulah Chord Superman Is Dead My Girlfriend Is Pregnant. Chord ini dipublikasian hanya untuk kepentingan belajar saja. Hak cipta tetap milik pencipta lagu.