Chord Superman Is Dead Ephedrine King

327 views

Chord Superman Is Dead Ephedrine King dengan chord diagram, versi lebih mudah.

Song        : Ephedrine King
Artist      : Superman Is Dead
Tabbed by   : yoos
Email       : yoos_yoes@yahoo.com
Web site    : www.geocities.com/yoos_yoes


Fig1
e|-------------|
B|--0h1-0------|
G|--------0h2--|
D|-------------|
A|-------------|
E|-------------|

Fig2
e|---------------------|
B|---------------------|
G|---------------------|
D|----2---2---2---2-2--| + C5 B5/C5 D5 C5\B5 C5\B5
A|--0---0---0---0------|
E|---------------------|

Fig3
e|--------------------|
B|--------------------|
G|--------------------|
D|----2----2-2-0------| 4x
A|--0----0-------3-2--|
E|--------------------|

e|-------------------------------|
B|-------------------------------|
G|-------------------------------|
D|------2-----2-----2-----2---2--| 4x
A|--0-0---0-0---0-0---0-0---0----|
E|-------------------------------|

===========================================================

E5 C5 D5 F5 G5 E5 C5 D5
E5 C5 D5 F5 G5 E5 C5 D5
E5 C5 D5 F5 G5 E5 C5 D5
E5 C5 D5 F5 G5 E5 C5 D5 C5 B5 C5
A5 E5 A5 E5 A5 E5 A5 E5

A5             F5                  C5
I want here to tell you, the story about this
G5
King halelluja, queen of the light
A5              F5                        C5
He s never been sleeping, he liked to get trippin 
G5
Never give up for taking drugs

C5 B5  A5  G5    F5               C5
So whatcha gonna do, my Ephedrine King
G5
6 in the morning still got the pills
A5               F5
When the whiskey comes down
C5                     G5
When it comes down, he s gonna start to search the light

C5
Ephedrine King hell yeah!:
G5      F5
Walking backwards for some fun
C5
F-U-C-K fuck yea!:
G5     F5
Say it loud when you get high

A5 G5 F5 G5 Fig1
A5 G5 F5 G5

A5          F5                  C5
Talking too fast, but moving so slow what
G5
The hell am I doing down here with you
A5           F5                     C5
Walking like rubber, and my hair is growing
G5
Am I just pretending or is it real

B5 C5 B5 A5 G5   F5                    C5
So whatcha gonna do, I m the Ephedrine King
G5
6 in the morning still got the chicks
A5               F5
When the whiskey comes down
C5                        G5
When it comes down, girls they re just gonna scream so loud


Fig2

C5        A5
So do you think it s been so fun 
F5     G5
Well I guess you re not so pretty right
C5       A5
Cos deep inside I feel so low
F5       G5
In everything I ve done for life

A5 G5 F5 G5
Fig3

Itulah Chord Superman Is Dead Ephedrine King. Chord ini dipublikasian hanya untuk kepentingan belajar saja. Hak cipta tetap milik pencipta lagu.